ISO-10303-21;
HEADER;
FILE_DESCRIPTION (( 'STEP AP203' ),
    '1' );
FILE_NAME ('BK7-BPBSC-25.4-650-900.STEP',
    '2021-01-05T02:11:20',
    ( '' ),
    ( '' ),
    'SwSTEP 2.0',
    'SolidWorks 2020',
    '' );
FILE_SCHEMA (( 'CONFIG_CONTROL_DESIGN' ));
ENDSEC;

DATA;
#1 = VECTOR ( 'NONE', #17, 1000.000000000000000 ) ;
#2 = CC_DESIGN_APPROVAL ( #190, ( #154 ) ) ;
#3 = PERSON_AND_ORGANIZATION ( #15, #29 ) ;
#4 = FACE_OUTER_BOUND ( 'NONE', #228, .T. ) ;
#5 = ORIENTED_EDGE ( 'NONE', *, *, #250, .T. ) ;
#6 = PERSON_AND_ORGANIZATION_ROLE ( 'creator' ) ;
#7 = VERTEX_POINT ( 'NONE', #300 ) ;
#8 = ADVANCED_FACE ( 'NONE', ( #10 ), #205, .F. ) ;
#9 = PRODUCT_DEFINITION_FORMATION_WITH_SPECIFIED_SOURCE ( 'ANY', '', #218, .NOT_KNOWN. ) ;
#10 = FACE_OUTER_BOUND ( 'NONE', #105, .T. ) ;
#11 = ORIENTED_EDGE ( 'NONE', *, *, #41, .F. ) ;
#12 = CARTESIAN_POINT ( 'NONE',  ( -12.69999999999999751, -12.69999999999999929, 12.69999999999999929 ) ) ;
#13 = VECTOR ( 'NONE', #28, 1000.000000000000000 ) ;
#14 = DIRECTION ( 'NONE',  ( 0.000000000000000000, 0.000000000000000000, -1.000000000000000000 ) ) ;
#15 = PERSON ( 'UNSPECIFIED', 'UNSPECIFIED', 'UNSPECIFIED', ('UNSPECIFIED'), ('UNSPECIFIED'), ('UNSPECIFIED') ) ;
#16 = DIRECTION ( 'NONE',  ( 1.000000000000000000, -2.220446049250312588E-16, 0.000000000000000000 ) ) ;
#17 = DIRECTION ( 'NONE',  ( -2.220446049250312588E-16, 1.000000000000000000, 0.000000000000000000 ) ) ;
#18 = LINE ( 'NONE', #87, #239 ) ;
#19 = CARTESIAN_POINT ( 'NONE',  ( -12.70000000000000284, 12.70000000000000284, 12.69999999999999929 ) ) ;
#20 = DIRECTION ( 'NONE',  ( 0.000000000000000000, 0.000000000000000000, 1.000000000000000000 ) ) ;
#21 = PERSON_AND_ORGANIZATION_ROLE ( 'design_owner' ) ;
#22 = EDGE_CURVE ( 'NONE', #81, #56, #152, .T. ) ;
#23 = VECTOR ( 'NONE', #142, 1000.000000000000114 ) ;
#24 = PLANE ( 'NONE',  #219 ) ;
#25 = ADVANCED_FACE ( 'NONE', ( #4 ), #298, .F. ) ;
#26 = CALENDAR_DATE ( 2021, 5, 1 ) ;
#27 = VECTOR ( 'NONE', #262, 1000.000000000000000 ) ;
#28 = DIRECTION ( 'NONE',  ( 1.000000000000000000, -2.220446049250312588E-16, 0.000000000000000000 ) ) ;
#29 = ORGANIZATION ( 'UNSPECIFIED', 'UNSPECIFIED', '' ) ;
#30 = APPROVAL_DATE_TIME ( #176, #309 ) ;
#31 = VERTEX_POINT ( 'NONE', #78 ) ;
#32 = PERSON_AND_ORGANIZATION ( #15, #29 ) ;
#33 = ORIENTED_EDGE ( 'NONE', *, *, #137, .F. ) ;
#34 = CALENDAR_DATE ( 2021, 5, 1 ) ;
#35 = VERTEX_POINT ( 'NONE', #177 ) ;
#36 = ORIENTED_EDGE ( 'NONE', *, *, #240, .T. ) ;
#37 = ORIENTED_EDGE ( 'NONE', *, *, #227, .T. ) ;
#38 = CC_DESIGN_PERSON_AND_ORGANIZATION_ASSIGNMENT ( #158, #271, ( #9 ) ) ;
#39 = LINE ( 'NONE', #281, #286 ) ;
#40 = DESIGN_CONTEXT ( 'detailed design', #63, 'design' ) ;
#41 = EDGE_CURVE ( 'NONE', #155, #256, #59, .T. ) ;
#42 = DIRECTION ( 'NONE',  ( -0.000000000000000000, -0.000000000000000000, -1.000000000000000000 ) ) ;
#43 = VECTOR ( 'NONE', #310, 1000.000000000000000 ) ;
#44 = AXIS2_PLACEMENT_3D ( 'NONE', #267, #120, #290 ) ;
#45 = PLANE ( 'NONE',  #255 ) ;
#46 = CARTESIAN_POINT ( 'NONE',  ( 12.69999999999999929, 12.69999999999999929, 12.69999999999999929 ) ) ;
#47 = PLANE ( 'NONE',  #165 ) ;
#48 = CLOSED_SHELL ( 'NONE', ( #156, #287, #8, #261, #283 ) ) ;
#49 = CARTESIAN_POINT ( 'NONE',  ( 12.69999999999999929, 12.69999999999999929, -12.69999999999999929 ) ) ;
#50 = AXIS2_PLACEMENT_3D ( 'NONE', #115, #294, #195 ) ;
#51 = LINE ( 'NONE', #92, #166 ) ;
#52 = FACE_OUTER_BOUND ( 'NONE', #132, .T. ) ;
#53 = ORIENTED_EDGE ( 'NONE', *, *, #80, .F. ) ;
#54 = EDGE_CURVE ( 'NONE', #7, #256, #139, .T. ) ;
#55 = COORDINATED_UNIVERSAL_TIME_OFFSET ( 8, 0, .AHEAD. ) ;
#56 = VERTEX_POINT ( 'NONE', #66 ) ;
#57 = ORIENTED_EDGE ( 'NONE', *, *, #299, .T. ) ;
#58 = LOCAL_TIME ( 10, 11, 20.00000000000000000, #101 ) ;
#59 = LINE ( 'NONE', #251, #193 ) ;
#60 = PERSON_AND_ORGANIZATION ( #15, #29 ) ;
#61 = VERTEX_POINT ( 'NONE', #111 ) ;
#62 = APPROVAL_ROLE ( '' ) ;
#63 = APPLICATION_CONTEXT ( 'configuration controlled 3d designs of mechanical parts and assemblies' ) ;
#64 = ORIENTED_EDGE ( 'NONE', *, *, #22, .F. ) ;
#65 = CARTESIAN_POINT ( 'NONE',  ( 12.69999999999999574, 12.69999999999999574, -12.69999999999999929 ) ) ;
#66 = CARTESIAN_POINT ( 'NONE',  ( 12.69999999999999574, 12.69999999999999574, 12.69999999999999929 ) ) ;
#67 = DIRECTION ( 'NONE',  ( 0.7071067811865474617, 0.7071067811865474617, 0.000000000000000000 ) ) ;
#68 = DIRECTION ( 'NONE',  ( -0.000000000000000000, 1.000000000000000000, -0.000000000000000000 ) ) ;
#69 = PLANE ( 'NONE',  #70 ) ;
#70 = AXIS2_PLACEMENT_3D ( 'NONE', #237, #214, #110 ) ;
#71 = PRODUCT_DEFINITION_SHAPE ( 'NONE', 'NONE',  #154 ) ;
#72 = PLANE ( 'NONE',  #204 ) ;
#73 = CC_DESIGN_PERSON_AND_ORGANIZATION_ASSIGNMENT ( #60, #153, ( #9 ) ) ;
#74 =( LENGTH_UNIT ( ) NAMED_UNIT ( * ) SI_UNIT ( .MILLI., .METRE. ) );
#75 = ORIENTED_EDGE ( 'NONE', *, *, #227, .F. ) ;
#76 = CARTESIAN_POINT ( 'NONE',  ( 0.000000000000000000, 0.000000000000000000, -12.69999999999999929 ) ) ;
#77 = EDGE_CURVE ( 'NONE', #35, #203, #86, .T. ) ;
#78 = CARTESIAN_POINT ( 'NONE',  ( 12.69999999999999929, -12.69999999999999929, 12.69999999999999929 ) ) ;
#79 = APPROVAL_PERSON_ORGANIZATION ( #220, #190, #62 ) ;
#80 = EDGE_CURVE ( 'NONE', #226, #7, #312, .T. ) ;
#81 = VERTEX_POINT ( 'NONE', #135 ) ;
#82 = DIRECTION ( 'NONE',  ( 2.220446049250312588E-16, -1.000000000000000000, 0.000000000000000000 ) ) ;
#83 = CC_DESIGN_PERSON_AND_ORGANIZATION_ASSIGNMENT ( #276, #6, ( #154 ) ) ;
#84 = ORIENTED_EDGE ( 'NONE', *, *, #250, .F. ) ;
#85 = LOCAL_TIME ( 10, 11, 20.00000000000000000, #55 ) ;
#86 = LINE ( 'NONE', #46, #94 ) ;
#87 = CARTESIAN_POINT ( 'NONE',  ( 12.69999999999999929, -12.69999999999999929, 12.69999999999999929 ) ) ;
#88 = DIRECTION ( 'NONE',  ( 0.7071067811865475727, 0.7071067811865475727, 0.000000000000000000 ) ) ;
#89 = ADVANCED_FACE ( 'NONE', ( #163 ), #45, .T. ) ;
#90 = CARTESIAN_POINT ( 'NONE',  ( 12.69999999999999929, 12.69999999999999929, 12.69999999999999929 ) ) ;
#91 = CC_DESIGN_PERSON_AND_ORGANIZATION_ASSIGNMENT ( #243, #21, ( #218 ) ) ;
#92 = CARTESIAN_POINT ( 'NONE',  ( 12.69999999999999574, 12.69999999999999574, 12.69999999999999929 ) ) ;
#93 =( NAMED_UNIT ( * ) PLANE_ANGLE_UNIT ( ) SI_UNIT ( $, .RADIAN. ) );
#94 = VECTOR ( 'NONE', #187, 1000.000000000000114 ) ;
#95 = DIRECTION ( 'NONE',  ( 1.000000000000000000, 0.000000000000000000, 0.000000000000000000 ) ) ;
#96 = SECURITY_CLASSIFICATION ( '', '', #125 ) ;
#97 = FACE_OUTER_BOUND ( 'NONE', #172, .T. ) ;
#98 = MANIFOLD_SOLID_BREP ( '¾µÏ', #48 ) ;
#99 = ORIENTED_EDGE ( 'NONE', *, *, #232, .T. ) ;
#100 = DATE_AND_TIME ( #123, #213 ) ;
#101 = COORDINATED_UNIVERSAL_TIME_OFFSET ( 8, 0, .AHEAD. ) ;
#102 = EDGE_LOOP ( 'NONE', ( #122, #84, #37, #230 ) ) ;
#103 = ORIENTED_EDGE ( 'NONE', *, *, #134, .F. ) ;
#104 = COORDINATED_UNIVERSAL_TIME_OFFSET ( 8, 0, .AHEAD. ) ;
#105 = EDGE_LOOP ( 'NONE', ( #53, #280, #249, #5 ) ) ;
#106 = DATE_TIME_ROLE ( 'classification_date' ) ;
#107 = ORIENTED_EDGE ( 'NONE', *, *, #144, .T. ) ;
#108 = EDGE_CURVE ( 'NONE', #31, #35, #184, .T. ) ;
#109 = ORIENTED_EDGE ( 'NONE', *, *, #80, .T. ) ;
#110 = DIRECTION ( 'NONE',  ( 0.000000000000000000, 0.000000000000000000, 1.000000000000000000 ) ) ;
#111 = CARTESIAN_POINT ( 'NONE',  ( 12.69999999999999929, 12.69999999999999929, -12.69999999999999929 ) ) ;
#112 = CARTESIAN_POINT ( 'NONE',  ( -12.69999999999999751, -12.69999999999999929, 12.69999999999999929 ) ) ;
#113 = PLANE ( 'NONE',  #266 ) ;
#114 = DIRECTION ( 'NONE',  ( -0.000000000000000000, 0.000000000000000000, 1.000000000000000000 ) ) ;
#115 = CARTESIAN_POINT ( 'NONE',  ( -12.69999999999999751, -12.69999999999999929, 12.69999999999999929 ) ) ;
#116 = APPLICATION_CONTEXT ( 'configuration controlled 3d designs of mechanical parts and assemblies' ) ;
#117 = MECHANICAL_CONTEXT ( 'NONE', #116, 'mechanical' ) ;
#118 = APPLICATION_PROTOCOL_DEFINITION ( 'international standard', 'config_control_design', 1994, #63 ) ;
#119 = CC_DESIGN_APPROVAL ( #309, ( #96 ) ) ;
#120 = DIRECTION ( 'NONE',  ( 0.000000000000000000, 0.000000000000000000, 1.000000000000000000 ) ) ;
#121 = DATE_AND_TIME ( #26, #225 ) ;
#122 = ORIENTED_EDGE ( 'NONE', *, *, #54, .F. ) ;
#123 = CALENDAR_DATE ( 2021, 5, 1 ) ;
#124 = ORIENTED_EDGE ( 'NONE', *, *, #180, .T. ) ;
#125 = SECURITY_CLASSIFICATION_LEVEL ( 'unclassified' ) ;
#126 = ORIENTED_EDGE ( 'NONE', *, *, #215, .T. ) ;
#127 = APPROVAL_STATUS ( 'not_yet_approved' ) ;
#128 = AXIS2_PLACEMENT_3D ( 'NONE', #76, #275, #151 ) ;
#129 = VERTEX_POINT ( 'NONE', #265 ) ;
#130 = ADVANCED_FACE ( 'NONE', ( #161 ), #69, .F. ) ;
#131 = ORIENTED_EDGE ( 'NONE', *, *, #54, .T. ) ;
#132 = EDGE_LOOP ( 'NONE', ( #272, #11, #107, #57 ) ) ;
#133 = LINE ( 'NONE', #236, #207 ) ;
#134 = EDGE_CURVE ( 'NONE', #31, #157, #18, .T. ) ;
#135 = CARTESIAN_POINT ( 'NONE',  ( -12.70000000000000284, 12.70000000000000284, 12.69999999999999929 ) ) ;
#136 = LINE ( 'NONE', #259, #27 ) ;
#137 = EDGE_CURVE ( 'NONE', #157, #61, #39, .T. ) ;
#138 = DIRECTION ( 'NONE',  ( 1.000000000000000000, 0.000000000000000000, 0.000000000000000000 ) ) ;
#139 = LINE ( 'NONE', #238, #306 ) ;
#140 = VECTOR ( 'NONE', #242, 1000.000000000000000 ) ;
#141 = DIRECTION ( 'NONE',  ( -2.220446049250312588E-16, 1.000000000000000000, 0.000000000000000000 ) ) ;
#142 = DIRECTION ( 'NONE',  ( -0.7071067811865474617, -0.7071067811865474617, 0.000000000000000000 ) ) ;
#143 = LINE ( 'NONE', #19, #140 ) ;
#144 = EDGE_CURVE ( 'NONE', #155, #81, #264, .T. ) ;
#145 = ORIENTED_EDGE ( 'NONE', *, *, #144, .F. ) ;
#146 = CARTESIAN_POINT ( 'NONE',  ( 0.000000000000000000, 0.000000000000000000, 12.69999999999999929 ) ) ;
#147 = ADVANCED_FACE ( 'NONE', ( #282 ), #113, .F. ) ;
#148 = APPROVAL_ROLE ( '' ) ;
#149 = EDGE_LOOP ( 'NONE', ( #181, #124, #279 ) ) ;
#150 = APPROVAL_DATE_TIME ( #121, #190 ) ;
#151 = DIRECTION ( 'NONE',  ( 1.000000000000000000, 0.000000000000000000, 0.000000000000000000 ) ) ;
#152 = LINE ( 'NONE', #183, #13 ) ;
#153 = PERSON_AND_ORGANIZATION_ROLE ( 'design_supplier' ) ;
#154 = PRODUCT_DEFINITION ( 'UNKNOWN', '', #9, #40 ) ;
#155 = VERTEX_POINT ( 'NONE', #191 ) ;
#156 = ADVANCED_FACE ( 'NONE', ( #234 ), #47, .F. ) ;
#157 = VERTEX_POINT ( 'NONE', #162 ) ;
#158 = PERSON_AND_ORGANIZATION ( #15, #29 ) ;
#159 = ORIENTED_EDGE ( 'NONE', *, *, #134, .T. ) ;
#160 = CARTESIAN_POINT ( 'NONE',  ( -12.69999999999999574, -12.69999999999999396, 12.69999999999999929 ) ) ;
#161 = FACE_OUTER_BOUND ( 'NONE', #278, .T. ) ;
#162 = CARTESIAN_POINT ( 'NONE',  ( 12.69999999999999929, -12.69999999999999929, -12.69999999999999929 ) ) ;
#163 = FACE_OUTER_BOUND ( 'NONE', #149, .T. ) ;
#164 = CARTESIAN_POINT ( 'NONE',  ( 0.000000000000000000, 0.000000000000000000, 0.000000000000000000 ) ) ;
#165 = AXIS2_PLACEMENT_3D ( 'NONE', #260, #289, #88 ) ;
#166 = VECTOR ( 'NONE', #196, 1000.000000000000000 ) ;
#167 = LINE ( 'NONE', #49, #23 ) ;
#168 = APPROVAL ( #200, 'UNSPECIFIED' ) ;
#169 = FACE_OUTER_BOUND ( 'NONE', #199, .T. ) ;
#170 = PLANE ( 'NONE',  #44 ) ;
#171 = DIRECTION ( 'NONE',  ( -0.7071067811865475727, -0.7071067811865475727, 0.000000000000000000 ) ) ;
#172 = EDGE_LOOP ( 'NONE', ( #131, #197, #109 ) ) ;
#173 = COORDINATED_UNIVERSAL_TIME_OFFSET ( 8, 0, .AHEAD. ) ;
#174 = EDGE_LOOP ( 'NONE', ( #99, #277, #206, #182 ) ) ;
#175 = VECTOR ( 'NONE', #307, 1000.000000000000000 ) ;
#176 = DATE_AND_TIME ( #246, #58 ) ;
#177 = CARTESIAN_POINT ( 'NONE',  ( 12.69999999999999929, 12.69999999999999929, 12.69999999999999929 ) ) ;
#178 = PRODUCT_RELATED_PRODUCT_CATEGORY ( 'detail', '', ( #218 ) ) ;
#179 = DATE_AND_TIME ( #34, #245 ) ;
#180 = EDGE_CURVE ( 'NONE', #203, #31, #136, .T. ) ;
#181 = ORIENTED_EDGE ( 'NONE', *, *, #77, .T. ) ;
#182 = ORIENTED_EDGE ( 'NONE', *, *, #185, .T. ) ;
#183 = CARTESIAN_POINT ( 'NONE',  ( 12.69999999999999574, 12.69999999999999574, 12.69999999999999929 ) ) ;
#184 = LINE ( 'NONE', #90, #295 ) ;
#185 = EDGE_CURVE ( 'NONE', #35, #61, #133, .T. ) ;
#186 = DIRECTION ( 'NONE',  ( -0.000000000000000000, 1.000000000000000000, -0.000000000000000000 ) ) ;
#187 = DIRECTION ( 'NONE',  ( -0.7071067811865474617, -0.7071067811865474617, 0.000000000000000000 ) ) ;
#188 = DIRECTION ( 'NONE',  ( -0.7071067811865475727, -0.7071067811865475727, 0.000000000000000000 ) ) ;
#189 =( GEOMETRIC_REPRESENTATION_CONTEXT ( 3 ) GLOBAL_UNCERTAINTY_ASSIGNED_CONTEXT ( ( #285 ) ) GLOBAL_UNIT_ASSIGNED_CONTEXT ( ( #74, #93, #321 ) ) REPRESENTATION_CONTEXT ( 'NONE', 'WORKASPACE' ) );
#190 = APPROVAL ( #320, 'UNSPECIFIED' ) ;
#191 = CARTESIAN_POINT ( 'NONE',  ( -12.69999999999999574, -12.69999999999999396, 12.69999999999999929 ) ) ;
#192 = DIRECTION ( 'NONE',  ( 0.000000000000000000, 0.000000000000000000, 1.000000000000000000 ) ) ;
#193 = VECTOR ( 'NONE', #14, 1000.000000000000000 ) ;
#194 = APPROVAL_PERSON_ORGANIZATION ( #3, #309, #148 ) ;
#195 = DIRECTION ( 'NONE',  ( 0.000000000000000000, -0.000000000000000000, 1.000000000000000000 ) ) ;
#196 = DIRECTION ( 'NONE',  ( 0.000000000000000000, 0.000000000000000000, -1.000000000000000000 ) ) ;
#197 = ORIENTED_EDGE ( 'NONE', *, *, #222, .T. ) ;
#198 = APPROVAL_DATE_TIME ( #179, #168 ) ;
#199 = EDGE_LOOP ( 'NONE', ( #36, #103, #229, #126 ) ) ;
#200 = APPROVAL_STATUS ( 'not_yet_approved' ) ;
#201 = ORIENTED_EDGE ( 'NONE', *, *, #137, .T. ) ;
#202 = APPROVAL_ROLE ( '' ) ;
#203 = VERTEX_POINT ( 'NONE', #112 ) ;
#204 = AXIS2_PLACEMENT_3D ( 'NONE', #146, #318, #141 ) ;
#205 = PLANE ( 'NONE',  #269 ) ;
#206 = ORIENTED_EDGE ( 'NONE', *, *, #77, .F. ) ;
#207 = VECTOR ( 'NONE', #42, 1000.000000000000000 ) ;
#208 = CARTESIAN_POINT ( 'NONE',  ( 12.69999999999999929, 12.69999999999999929, 12.69999999999999929 ) ) ;
#209 = LINE ( 'NONE', #210, #43 ) ;
#210 = CARTESIAN_POINT ( 'NONE',  ( -12.69999999999999574, -12.69999999999999396, -12.69999999999999929 ) ) ;
#211 = DIRECTION ( 'NONE',  ( 0.7071067811865475727, -0.7071067811865475727, 0.000000000000000000 ) ) ;
#212 = CLOSED_SHELL ( 'NONE', ( #147, #273, #130, #89, #25 ) ) ;
#213 = LOCAL_TIME ( 10, 11, 20.00000000000000000, #104 ) ;
#214 = DIRECTION ( 'NONE',  ( -1.000000000000000000, 0.000000000000000000, 0.000000000000000000 ) ) ;
#215 = EDGE_CURVE ( 'NONE', #203, #129, #233, .T. ) ;
#216 = CARTESIAN_POINT ( 'NONE',  ( -12.69999999999999574, -12.69999999999999396, -12.69999999999999929 ) ) ;
#217 = CARTESIAN_POINT ( 'NONE',  ( 12.69999999999999574, 12.69999999999999574, 12.69999999999999929 ) ) ;
#218 = PRODUCT ( 'BK7-BPBSC-25.4-650-900', 'BK7-BPBSC-25.4-650-900', '', ( #117 ) ) ;
#219 = AXIS2_PLACEMENT_3D ( 'NONE', #221, #241, #192 ) ;
#220 = PERSON_AND_ORGANIZATION ( #15, #29 ) ;
#221 = CARTESIAN_POINT ( 'NONE',  ( -12.69999999999999574, -12.69999999999999396, 12.69999999999999929 ) ) ;
#222 = EDGE_CURVE ( 'NONE', #256, #226, #209, .T. ) ;
#223 = APPLICATION_PROTOCOL_DEFINITION ( 'international standard', 'config_control_design', 1994, #116 ) ;
#224 = DATE_TIME_ROLE ( 'creation_date' ) ;
#225 = LOCAL_TIME ( 10, 11, 20.00000000000000000, #303 ) ;
#226 = VERTEX_POINT ( 'NONE', #284 ) ;
#227 = EDGE_CURVE ( 'NONE', #56, #155, #311, .T. ) ;
#228 = EDGE_LOOP ( 'NONE', ( #305, #33, #302 ) ) ;
#229 = ORIENTED_EDGE ( 'NONE', *, *, #180, .F. ) ;
#230 = ORIENTED_EDGE ( 'NONE', *, *, #41, .T. ) ;
#231 = DIRECTION ( 'NONE',  ( 0.000000000000000000, 0.000000000000000000, 1.000000000000000000 ) ) ;
#232 = EDGE_CURVE ( 'NONE', #61, #129, #167, .T. ) ;
#233 = LINE ( 'NONE', #12, #175 ) ;
#234 = FACE_OUTER_BOUND ( 'NONE', #102, .T. ) ;
#235 = VECTOR ( 'NONE', #171, 999.9999999999998863 ) ;
#236 = CARTESIAN_POINT ( 'NONE',  ( 12.69999999999999929, 12.69999999999999929, 12.69999999999999929 ) ) ;
#237 = CARTESIAN_POINT ( 'NONE',  ( 12.69999999999999929, 12.69999999999999929, 12.69999999999999929 ) ) ;
#238 = CARTESIAN_POINT ( 'NONE',  ( 12.69999999999999574, 12.69999999999999574, -12.69999999999999929 ) ) ;
#239 = VECTOR ( 'NONE', #316, 1000.000000000000000 ) ;
#240 = EDGE_CURVE ( 'NONE', #129, #157, #317, .T. ) ;
#241 = DIRECTION ( 'NONE',  ( 1.000000000000000000, -2.220446049250312588E-16, 0.000000000000000000 ) ) ;
#242 = DIRECTION ( 'NONE',  ( 0.000000000000000000, 0.000000000000000000, -1.000000000000000000 ) ) ;
#243 = PERSON_AND_ORGANIZATION ( #15, #29 ) ;
#244 = VECTOR ( 'NONE', #16, 1000.000000000000000 ) ;
#245 = LOCAL_TIME ( 10, 11, 20.00000000000000000, #173 ) ;
#246 = CALENDAR_DATE ( 2021, 5, 1 ) ;
#247 = DATE_AND_TIME ( #274, #85 ) ;
#248 = CC_DESIGN_APPROVAL ( #168, ( #9 ) ) ;
#249 = ORIENTED_EDGE ( 'NONE', *, *, #22, .T. ) ;
#250 = EDGE_CURVE ( 'NONE', #56, #7, #51, .T. ) ;
#251 = CARTESIAN_POINT ( 'NONE',  ( -12.69999999999999574, -12.69999999999999396, 12.69999999999999929 ) ) ;
#252 = SHAPE_DEFINITION_REPRESENTATION ( #71, #308 ) ;
#253 = ORIENTED_EDGE ( 'NONE', *, *, #108, .F. ) ;
#254 = ORIENTED_EDGE ( 'NONE', *, *, #185, .F. ) ;
#255 = AXIS2_PLACEMENT_3D ( 'NONE', #288, #114, #138 ) ;
#256 = VERTEX_POINT ( 'NONE', #216 ) ;
#257 = AXIS2_PLACEMENT_3D ( 'NONE', #164, #20, #291 ) ;
#258 = CC_DESIGN_DATE_AND_TIME_ASSIGNMENT ( #247, #106, ( #96 ) ) ;
#259 = CARTESIAN_POINT ( 'NONE',  ( -12.69999999999999751, -12.69999999999999929, 12.69999999999999929 ) ) ;
#260 = CARTESIAN_POINT ( 'NONE',  ( 12.69999999999999574, 12.69999999999999574, 12.69999999999999929 ) ) ;
#261 = ADVANCED_FACE ( 'NONE', ( #293 ), #72, .T. ) ;
#262 = DIRECTION ( 'NONE',  ( 1.000000000000000000, 0.000000000000000000, 0.000000000000000000 ) ) ;
#263 = APPROVAL_PERSON_ORGANIZATION ( #32, #168, #202 ) ;
#264 = LINE ( 'NONE', #160, #1 ) ;
#265 = CARTESIAN_POINT ( 'NONE',  ( -12.69999999999999751, -12.69999999999999929, -12.69999999999999929 ) ) ;
#266 = AXIS2_PLACEMENT_3D ( 'NONE', #208, #211, #67 ) ;
#267 = CARTESIAN_POINT ( 'NONE',  ( 0.000000000000000000, 0.000000000000000000, -12.69999999999999929 ) ) ;
#268 = CARTESIAN_POINT ( 'NONE',  ( -12.69999999999999751, -12.69999999999999929, -12.69999999999999929 ) ) ;
#269 = AXIS2_PLACEMENT_3D ( 'NONE', #304, #82, #231 ) ;
#270 = PLANE ( 'NONE',  #50 ) ;
#271 = PERSON_AND_ORGANIZATION_ROLE ( 'creator' ) ;
#272 = ORIENTED_EDGE ( 'NONE', *, *, #222, .F. ) ;
#273 = ADVANCED_FACE ( 'NONE', ( #169 ), #270, .F. ) ;
#274 = CALENDAR_DATE ( 2021, 5, 1 ) ;
#275 = DIRECTION ( 'NONE',  ( -0.000000000000000000, 0.000000000000000000, 1.000000000000000000 ) ) ;
#276 = PERSON_AND_ORGANIZATION ( #15, #29 ) ;
#277 = ORIENTED_EDGE ( 'NONE', *, *, #215, .F. ) ;
#278 = EDGE_LOOP ( 'NONE', ( #201, #254, #253, #159 ) ) ;
#279 = ORIENTED_EDGE ( 'NONE', *, *, #108, .T. ) ;
#280 = ORIENTED_EDGE ( 'NONE', *, *, #299, .F. ) ;
#281 = CARTESIAN_POINT ( 'NONE',  ( 12.69999999999999929, 12.69999999999999929, -12.69999999999999929 ) ) ;
#282 = FACE_OUTER_BOUND ( 'NONE', #174, .T. ) ;
#283 = ADVANCED_FACE ( 'NONE', ( #97 ), #170, .F. ) ;
#284 = CARTESIAN_POINT ( 'NONE',  ( -12.70000000000000284, 12.70000000000000284, -12.69999999999999929 ) ) ;
#285 = UNCERTAINTY_MEASURE_WITH_UNIT (LENGTH_MEASURE( 1.000000000000000082E-05 ), #74, 'distance_accuracy_value', 'NONE');
#286 = VECTOR ( 'NONE', #68, 1000.000000000000000 ) ;
#287 = ADVANCED_FACE ( 'NONE', ( #52 ), #24, .F. ) ;
#288 = CARTESIAN_POINT ( 'NONE',  ( 0.000000000000000000, 0.000000000000000000, 12.69999999999999929 ) ) ;
#289 = DIRECTION ( 'NONE',  ( -0.7071067811865475727, 0.7071067811865475727, 0.000000000000000000 ) ) ;
#290 = DIRECTION ( 'NONE',  ( -2.220446049250312588E-16, 1.000000000000000000, 0.000000000000000000 ) ) ;
#291 = DIRECTION ( 'NONE',  ( 1.000000000000000000, 0.000000000000000000, 0.000000000000000000 ) ) ;
#292 = CC_DESIGN_PERSON_AND_ORGANIZATION_ASSIGNMENT ( #301, #297, ( #96 ) ) ;
#293 = FACE_OUTER_BOUND ( 'NONE', #296, .T. ) ;
#294 = DIRECTION ( 'NONE',  ( 0.000000000000000000, 1.000000000000000000, 0.000000000000000000 ) ) ;
#295 = VECTOR ( 'NONE', #186, 1000.000000000000000 ) ;
#296 = EDGE_LOOP ( 'NONE', ( #75, #64, #145 ) ) ;
#297 = PERSON_AND_ORGANIZATION_ROLE ( 'classification_officer' ) ;
#298 = PLANE ( 'NONE',  #128 ) ;
#299 = EDGE_CURVE ( 'NONE', #81, #226, #143, .T. ) ;
#300 = CARTESIAN_POINT ( 'NONE',  ( 12.69999999999999574, 12.69999999999999574, -12.69999999999999929 ) ) ;
#301 = PERSON_AND_ORGANIZATION ( #15, #29 ) ;
#302 = ORIENTED_EDGE ( 'NONE', *, *, #240, .F. ) ;
#303 = COORDINATED_UNIVERSAL_TIME_OFFSET ( 8, 0, .AHEAD. ) ;
#304 = CARTESIAN_POINT ( 'NONE',  ( 12.69999999999999574, 12.69999999999999574, 12.69999999999999929 ) ) ;
#305 = ORIENTED_EDGE ( 'NONE', *, *, #232, .F. ) ;
#306 = VECTOR ( 'NONE', #188, 999.9999999999998863 ) ;
#307 = DIRECTION ( 'NONE',  ( -0.000000000000000000, -0.000000000000000000, -1.000000000000000000 ) ) ;
#308 = ADVANCED_BREP_SHAPE_REPRESENTATION ( 'BK7-BPBSC-25.4-650-900', ( #313, #98, #257 ), #189 ) ;
#309 = APPROVAL ( #127, 'UNSPECIFIED' ) ;
#310 = DIRECTION ( 'NONE',  ( -2.220446049250312588E-16, 1.000000000000000000, 0.000000000000000000 ) ) ;
#311 = LINE ( 'NONE', #217, #235 ) ;
#312 = LINE ( 'NONE', #65, #244 ) ;
#313 = MANIFOLD_SOLID_BREP ( 'Í¹Ì¨-À', #212 ) ;
#314 = CC_DESIGN_SECURITY_CLASSIFICATION ( #96, ( #9 ) ) ;
#315 = CC_DESIGN_DATE_AND_TIME_ASSIGNMENT ( #100, #224, ( #154 ) ) ;
#316 = DIRECTION ( 'NONE',  ( -0.000000000000000000, -0.000000000000000000, -1.000000000000000000 ) ) ;
#317 = LINE ( 'NONE', #268, #319 ) ;
#318 = DIRECTION ( 'NONE',  ( 0.000000000000000000, 0.000000000000000000, 1.000000000000000000 ) ) ;
#319 = VECTOR ( 'NONE', #95, 1000.000000000000000 ) ;
#320 = APPROVAL_STATUS ( 'not_yet_approved' ) ;
#321 =( NAMED_UNIT ( * ) SI_UNIT ( $, .STERADIAN. ) SOLID_ANGLE_UNIT ( ) );
ENDSEC;
END-ISO-10303-21;
